999
DXF file: valea_1-0_super_single_g_up.dxf
999
Pro/ENGINEER 2011490 by Parametric Technology Corporation
  0
SECTION
  2
HEADER
  9
$ACADVER
  1
AC1014
  9
$DWGCODEPAGE
  3
ANSI_1252
  9
$EXTMAX
 10
1189.0
 20
841.0
 30
0.0
  9
$EXTMIN
 10
0.0
 20
0.0
 30
0.0
  9
$LIMMIN
 10
0.0
 20
0.0
  9
$LIMMAX
 10
1189.0
 20
841.0
  9
$VIEWCTR
 10
594.5
 20
420.5
  9
$VIEWSIZE
 40
841.0
  9
$CLAYER
  8
0
  9
$LTSCALE
 40
65.395
  9
$CELTYPE
  6
BYLAYER
  9
$DIMSCALE
 40
1.0
  9
$DIMASZ
 40
4.0
  9
$DIMEXO
 40
7.43125
  9
$DIMDLI
 40
45.182
  9
$DIMEXE
 40
21.402
  9
$DIMCEN
 40
10.701
  9
$DIMLFAC
 40
1.0
  9
$DIMBLK
  1
_ARROW_FILLED
  9
$DIMTXT
 40
3.5
  9
$DIMTOL
 70
1
  9
$DIMLIM
 70
0
  9
$DIMTFAC
 40
1.0
  9
$DIMTP
 40
0.01
  9
$DIMTM
 40
0.01
  9
$PDMODE
 70
3
  9
$PDSIZE
 40
0.05
  9
$HANDSEED
  5
225
  9
$TILEMODE
 70
1
  9
$MEASUREMENT
 70
1
  0
ENDSEC
  0
SECTION
  2
CLASSES
  0
ENDSEC
  0
SECTION
  2
TABLES
  0
TABLE
  2
VPORT
  5
8
100
AcDbSymbolTable
 70
2
  0
VPORT
  5
1F4
100
AcDbSymbolTableRecord
100
AcDbViewportTableRecord
  2
*ACTIVE
 70
0
 10
0.0
 20
0.0
 11
1.0
 21
1.0
 12
594.5
 22
420.5
 13
0.0
 23
0.0
 14
1.0
 24
1.0
 15
0.0
 25
0.0
 16
0.0
 26
0.0
 36
1.0
 17
0.0
 27
0.0
 37
0.0
 40
841.0
 41
1.4137931034
 42
50.0
 43
0.0
 44
0.0
 50
0.0
 51
0.0
 71
0
 72
100
 73
1
 74
1
 75
0
 76
0
 77
0
 78
0
  0
ENDTAB
  0
TABLE
  2
LTYPE
  5
5
100
AcDbSymbolTable
 70
6
  0
LTYPE
  5
14
100
AcDbSymbolTableRecord
100
AcDbLinetypeTableRecord
  2
BYBLOCK
 70
0
  3

 72
65
 73
0
 40
0.0
  0
LTYPE
  5
15
100
AcDbSymbolTableRecord
100
AcDbLinetypeTableRecord
  2
BYLAYER
 70
0
  3

 72
65
 73
0
 40
0.0
  0
LTYPE
  5
16
100
AcDbSymbolTableRecord
100
AcDbLinetypeTableRecord
  2
CONTINUOUS
 70
64
  3
Solid line
 72
65
 73
0
 40
0.0
  0
LTYPE
  5
1F5
100
AcDbSymbolTableRecord
100
AcDbLinetypeTableRecord
  2
CENTER
 70
64
  3
____ _ ____ _ ____ _ ____ _ ____ _ ____ _ ____
 72
65
 73
4
 40
0.6
 49
0.375
 74
0
 49
-0.075
 74
0
 49
0.075
 74
0
 49
-0.075
 74
0
  0
LTYPE
  5
1F6
100
AcDbSymbolTableRecord
100
AcDbLinetypeTableRecord
  2
HIDDEN
 70
64
  3
- - - - - - - - - - - - - - - - - - - -
 72
65
 73
2
 40
0.2
 49
0.1
 74
0
 49
-0.1
 74
0
  0
LTYPE
  5
1F7
100
AcDbSymbolTableRecord
100
AcDbLinetypeTableRecord
  2
PHANTOM
 70
64
  3
_____ _ _ _____ _ _ _____ _ _ _____
 72
65
 73
6
 40
0.8
 49
0.45
 74
0
 49
-0.05
 74
0
 49
0.1
 74
0
 49
-0.05
 74
0
 49
0.1
 74
0
 49
-0.05
 74
0
  0
LTYPE
  5
1F8
100
AcDbSymbolTableRecord
100
AcDbLinetypeTableRecord
  2
DOT
 70
64
  3
. . . . . . . . . . . . . . . . . . . .
 72
65
 73
2
 40
0.2
 49
0.1
 74
0
 49
-0.1
 74
0
  0
LTYPE
  5
1F9
100
AcDbSymbolTableRecord
100
AcDbLinetypeTableRecord
  2
DASHED
 70
64
  3
- - - - - - - - - - - - - - - - - - - -
 72
65
 73
2
 40
0.2
 49
0.1
 74
0
 49
-0.1
 74
0
  0
ENDTAB
  0
TABLE
  2
LAYER
  5
2
100
AcDbSymbolTable
 70
36
  0
LAYER
  5
10
100
AcDbSymbolTableRecord
100
AcDbLayerTableRecord
  2
0
 70
0
 62
7
  6
CONTINUOUS
  0
LAYER
  5
1FA
100
AcDbSymbolTableRecord
100
AcDbLayerTableRecord
  2
DEFAULT_1
 70
0
 62
7
  6
CENTER
  0
LAYER
  5
1FB
100
AcDbSymbolTableRecord
100
AcDbLayerTableRecord
  2
DEFAULT_2
 70
0
 62
8
  6
HIDDEN
  0
LAYER
  5
1FC
100
AcDbSymbolTableRecord
100
AcDbLayerTableRecord
  2
DEFAULT_3
 70
0
 62
7
  6
PHANTOM
  0
LAYER
  5
1FD
100
AcDbSymbolTableRecord
100
AcDbLayerTableRecord
  2
01___SYSTEM_KSYS
 70
0
 62
7
  6
CONTINUOUS
  0
LAYER
  5
1FE
100
AcDbSymbolTableRecord
100
AcDbLayerTableRecord
  2
02___SYSTEM_EBENEN
 70
0
 62
7
  6
CONTINUOUS
  0
LAYER
  5
1FF
100
AcDbSymbolTableRecord
100
AcDbLayerTableRecord
  2
03___SYSTEM_ACHSEN
 70
0
 62
7
  6
CONTINUOUS
  0
LAYER
  5
200
100
AcDbSymbolTableRecord
100
AcDbLayerTableRecord
  2
04___PRT_KSYS
 70
0
 62
7
  6
CONTINUOUS
  0
LAYER
  5
201
100
AcDbSymbolTableRecord
100
AcDbLayerTableRecord
  2
05___PRT_EBENEN
 70
0
 62
7
  6
CONTINUOUS
  0
LAYER
  5
202
100
AcDbSymbolTableRecord
100
AcDbLayerTableRecord
  2
06___PRT_ACHSEN
 70
0
 62
7
  6
CONTINUOUS
  0
LAYER
  5
203
100
AcDbSymbolTableRecord
100
AcDbLayerTableRecord
  2
07___PRT_KURVEN
 70
0
 62
7
  6
CONTINUOUS
  0
LAYER
  5
204
100
AcDbSymbolTableRecord
100
AcDbLayerTableRecord
  2
08___PRT_PUNKTE
 70
0
 62
7
  6
CONTINUOUS
  0
LAYER
  5
205
100
AcDbSymbolTableRecord
100
AcDbLayerTableRecord
  2
09___PRT_FLAECHEN
 70
0
 62
7
  6
CONTINUOUS
  0
LAYER
  5
206
100
AcDbSymbolTableRecord
100
AcDbLayerTableRecord
  2
ACHSEN
 70
0
 62
7
  6
CONTINUOUS
  0
LAYER
  5
207
100
AcDbSymbolTableRecord
100
AcDbLayerTableRecord
  2
EBENEN
 70
0
 62
7
  6
CONTINUOUS
  0
LAYER
  5
208
100
AcDbSymbolTableRecord
100
AcDbLayerTableRecord
  2
KURVEN
 70
0
 62
7
  6
CONTINUOUS
  0
LAYER
  5
209
100
AcDbSymbolTableRecord
100
AcDbLayerTableRecord
  2
PUNKTE
 70
0
 62
7
  6
CONTINUOUS
  0
LAYER
  5
20A
100
AcDbSymbolTableRecord
100
AcDbLayerTableRecord
  2
S-ACHSEN
 70
0
 62
7
  6
CONTINUOUS
  0
LAYER
  5
20B
100
AcDbSymbolTableRecord
100
AcDbLayerTableRecord
  2
S-EBENEN
 70
0
 62
7
  6
CONTINUOUS
  0
LAYER
  5
20C
100
AcDbSymbolTableRecord
100
AcDbLayerTableRecord
  2
S-KOORDS
 70
0
 62
7
  6
CONTINUOUS
  0
ENDTAB
  0
TABLE
  2
STYLE
  5
3
100
AcDbSymbolTable
 70
1
  0
STYLE
  5
11
100
AcDbSymbolTableRecord
100
AcDbTextStyleTableRecord
  2
STANDARD
 70
0
 40
0.0
 41
0.8
 50
0.0
 71
0
 42
0.2
  3
txt
  4

  0
STYLE
  5
20D
100
AcDbSymbolTableRecord
100
AcDbTextStyleTableRecord
  2
TEXTSTYLE_1
 70
0
 40
0.0
 41
0.8
 50
0.0
 71
0
 42
0.2
  3
gdt
  4

  0
ENDTAB
  0
TABLE
  2
VIEW
  5
6
100
AcDbSymbolTable
 70
0
  0
ENDTAB
  0
TABLE
  2
UCS
  5
7
100
AcDbSymbolTable
 70
0
  0
ENDTAB
  0
TABLE
  2
APPID
  5
9
100
AcDbSymbolTable
 70
1
  0
APPID
  5
20E
100
AcDbSymbolTableRecord
100
AcDbRegAppTableRecord
  2
ACAD
 70
0
  0
ENDTAB
  0
TABLE
  2
BLOCK_RECORD
  5
1
100
AcDbSymbolTable
 70
0
  0
BLOCK_RECORD
  5
1F
100
AcDbSymbolTableRecord
100
AcDbBlockTableRecord
  2
*MODEL_SPACE
  0
BLOCK_RECORD
  5
1B
100
AcDbSymbolTableRecord
100
AcDbBlockTableRecord
  2
*PAPER_SPACE
  0
ENDTAB
  0
TABLE
  2
DIMSTYLE
  5
A
100
AcDbSymbolTable
 70
1
  0
DIMSTYLE
105
20F
100
AcDbSymbolTableRecord
100
AcDbDimStyleTableRecord
  2
STANDARD
 70
0
  3

  4

  5
_ARROW_FILLED
  6
_ARROW_FILLED
  7
_ARROW_FILLED
 40
1.0
 41
4.0
 42
0.0625
 43
0.38
 44
0.18
 45
0.0
 46
0.0
 47
0.01
 48
0.01
140
3.5
141
0.09
142
0.0
143
25.4
144
1.0
145
0.0
146
1.0
147
0.09
 71
1.0
 72
0.0
 73
0
 74
0
 75
0
 76
0
 77
1
 78
8
170
0
171
2
172
0
173
0
174
0
175
0
176
0
177
0
178
5
270
2
271
2
272
2
273
2
274
2
275
0
280
0
281
0
282
0
283
1
284
8
285
0
286
0
287
3
288
0
340
11
  0
ENDTAB
  0
ENDSEC
  0
SECTION
  2
BLOCKS
  0
BLOCK
  5
20
100
AcDbEntity
  8
0
100
AcDbBlockBegin
  2
*MODEL_SPACE
 70
0
 10
0.0
 20
0.0
 30
0.0
  3
*MODEL_SPACE
  1

  0
ENDBLK
  5
21
100
AcDbEntity
  8
0
100
AcDbBlockEnd
  0
BLOCK
  5
1C
100
AcDbEntity
  8
0
100
AcDbBlockBegin
  2
*PAPER_SPACE
 70
0
 10
0.0
 20
0.0
 30
0.0
  3
*PAPER_SPACE
  1

  0
ENDBLK
  5
1D
100
AcDbEntity
  8
0
100
AcDbBlockEnd
  0
ENDSEC
  0
SECTION
  2
ENTITIES
  0
ARC
  5
210
100
AcDbEntity
  8
07___PRT_KURVEN
100
AcDbCircle
 62
7
  6
CONTINUOUS
 10
595.7116168478
 20
-4860.5954483696
 40
5498.575
100
AcDbArc
 50
86.5626141049
 51
93.4373858951
  0
ARC
  5
211
100
AcDbEntity
  8
07___PRT_KURVEN
100
AcDbCircle
 62
7
  6
CONTINUOUS
 10
-1440.2083831522
 20
430.3345516304
 40
2420.095
100
AcDbArc
 50
356.3597269971
 51
3.5883329831
  0
ARC
  5
212
100
AcDbEntity
  8
07___PRT_KURVEN
100
AcDbCircle
 62
7
  6
CONTINUOUS
 10
2631.6316168478
 20
430.3345516304
 40
2420.095
100
AcDbArc
 50
176.4116670169
 51
183.6402730029
  0
ARC
  5
213
100
AcDbEntity
  8
07___PRT_KURVEN
100
AcDbCircle
 62
7
  6
CONTINUOUS
 10
595.7116168478
 20
2181.0345516304
 40
1981.205
100
AcDbArc
 50
261.9023083911
 51
278.0976916089
  0
ARC
  5
214
100
AcDbEntity
  8
07___PRT_KURVEN
100
AcDbCircle
 62
7
  6
CONTINUOUS
 10
820.5551996214
 20
600.7447790537
 40
385.0
100
AcDbArc
 50
278.0976916089
 51
286.9798235957
  0
ARC
  5
215
100
AcDbEntity
  8
07___PRT_KURVEN
100
AcDbCircle
 62
7
  6
CONTINUOUS
 10
370.8680340742
 20
600.7447790537
 40
385.0
100
AcDbArc
 50
253.0201764043
 51
261.9023083911
  0
ARC
  5
216
100
AcDbEntity
  8
07___PRT_KURVEN
100
AcDbCircle
 62
7
  6
CONTINUOUS
 10
919.4818023576
 20
529.6645516304
 40
98.6
100
AcDbArc
 50
71.6277384943
 51
86.5626141049
  0
ARC
  5
217
100
AcDbEntity
  8
07___PRT_KURVEN
100
AcDbCircle
 62
7
  6
CONTINUOUS
 10
271.9414313381
 20
529.6645516304
 40
98.6
100
AcDbArc
 50
93.4373858951
 51
108.3722615057
  0
ARC
  5
218
100
AcDbEntity
  8
07___PRT_KURVEN
100
AcDbCircle
 62
7
  6
CONTINUOUS
 10
892.9035509232
 20
576.6445516304
 40
82.4
100
AcDbArc
 50
3.5883329831
 51
18.5145520096
  0
ARC
  5
219
100
AcDbEntity
  8
07___PRT_KURVEN
100
AcDbCircle
 62
7
  6
CONTINUOUS
 10
298.5196827724
 20
576.6445516304
 40
82.4
100
AcDbArc
 50
161.4854479904
 51
176.4116670169
  0
ARC
  5
21A
100
AcDbEntity
  8
07___PRT_KURVEN
100
AcDbCircle
 62
7
  6
CONTINUOUS
 10
910.1223123347
 20
307.4145516304
 40
78.3
100
AcDbArc
 50
286.9798235957
 51
309.1731967757
  0
ARC
  5
21B
100
AcDbEntity
  8
07___PRT_KURVEN
100
AcDbCircle
 62
7
  6
CONTINUOUS
 10
281.3009213609
 20
307.4145516304
 40
78.3
100
AcDbArc
 50
230.8268032243
 51
253.0201764043
  0
ARC
  5
21C
100
AcDbEntity
  8
07___PRT_KURVEN
100
AcDbCircle
 62
7
  6
CONTINUOUS
 10
932.9886472726
 20
279.3508610943
 40
42.1
100
AcDbArc
 50
309.1731967757
 51
356.3597269971
  0
ARC
  5
21D
100
AcDbEntity
  8
07___PRT_KURVEN
100
AcDbCircle
 62
7
  6
CONTINUOUS
 10
258.434586423
 20
279.3508610943
 40
42.1
100
AcDbArc
 50
183.6402730029
 51
230.8268032243
  0
ARC
  5
21E
100
AcDbEntity
  8
07___PRT_KURVEN
100
AcDbCircle
 62
7
  6
CONTINUOUS
 10
940.3631148466
 20
592.5377039988
 40
32.35
100
AcDbArc
 50
18.5145520096
 51
71.6277384943
  0
ARC
  5
21F
100
AcDbEntity
  8
07___PRT_KURVEN
100
AcDbCircle
 62
7
  6
CONTINUOUS
 10
251.0601188491
 20
592.5377039988
 40
32.35
100
AcDbArc
 50
108.3722615057
 51
161.4854479904
  0
CIRCLE
  5
220
100
AcDbEntity
  8
07___PRT_KURVEN
100
AcDbCircle
 62
7
  6
CONTINUOUS
 10
595.7116168478
 20
691.9795516304
 40
17.5
  0
ENDSEC
  0
SECTION
  2
OBJECTS
  0
DICTIONARY
  5
221
100
AcDbDictionary
  3
ACAD_GROUP
350
222
  3
ACAD_MLINESTYLE
350
223
  0
DICTIONARY
  5
222
102
{ACAD_REACTORS
330
221
102
}
100
AcDbDictionary
  0
DICTIONARY
  5
223
102
{ACAD_REACTORS
330
221
102
}
100
AcDbDictionary
  3
STANDARD
350
224
  0
MLINESTYLE
  5
224
102
{ACAD_REACTORS
330
223
102
}
100
AcDbMlineStyle
  2
STANDARD
 70
0
  3

 62
256
 51
90.0
 52
90.0
 71
2
 49
0.5
 62
256
  6
BYLAYER
 49
-0.5
 62
256
  6
BYLAYER
  0
ENDSEC
  0
EOF
